  0
SECTION
  2
HEADER
  9
$ACADVER
  1
AC1015
  9
$ACADMAINTVER
 70
     6
  9
$DWGCODEPAGE
  3
ANSI_1254
  9
$INSBASE
 10
0.0
 20
0.0
 30
0.0
  9
$EXTMIN
 10
0.0
 20
0.0
 30
0.0
  9
$EXTMAX
 10
279.4
 20
215.9
 30
0.0
  9
$LIMMIN
 10
0.0
 20
0.0
  9
$LIMMAX
 10
279.4
 20
215.9
  9
$ORTHOMODE
 70
     0
  9
$REGENMODE
 70
     1
  9
$FILLMODE
 70
     1
  9
$QTEXTMODE
 70
     0
  9
$MIRRTEXT
 70
     1
  9
$LTSCALE
 40
1.0
  9
$ATTMODE
 70
     1
  9
$TEXTSIZE
 40
3.5
  9
$TRACEWID
 40
1.0
  9
$TEXTSTYLE
  7
Standard
  9
$CLAYER
  8
0
  9
$CELTYPE
  6
ByLayer
  9
$CECOLOR
 62
   256
  9
$CELTSCALE
 40
1.0
  9
$DISPSILH
 70
     0
  9
$DIMSCALE
 40
1.0
  9
$DIMASZ
 40
3.5
  9
$DIMEXO
 40
1.0
  9
$DIMDLI
 40
3.75
  9
$DIMRND
 40
0.0
  9
$DIMDLE
 40
0.0
  9
$DIMEXE
 40
1.0
  9
$DIMTP
 40
0.0
  9
$DIMTM
 40
0.0
  9
$DIMTXT
 40
3.5
  9
$DIMCEN
 40
2.5
  9
$DIMTSZ
 40
0.0
  9
$DIMTOL
 70
     0
  9
$DIMLIM
 70
     0
  9
$DIMTIH
 70
     1
  9
$DIMTOH
 70
     1
  9
$DIMSE1
 70
     0
  9
$DIMSE2
 70
     0
  9
$DIMTAD
 70
     1
  9
$DIMZIN
 70
     0
  9
$DIMBLK
  1

  9
$DIMASO
 70
     1
  9
$DIMSHO
 70
     1
  9
$DIMPOST
  1

  9
$DIMAPOST
  1

  9
$DIMALT
 70
     0
  9
$DIMALTD
 70
     3
  9
$DIMALTF
 40
0.0393700787
  9
$DIMLFAC
 40
1.0
  9
$DIMTOFL
 70
     1
  9
$DIMTVP
 40
0.0
  9
$DIMTIX
 70
     0
  9
$DIMSOXD
 70
     0
  9
$DIMSAH
 70
     0
  9
$DIMBLK1
  1

  9
$DIMBLK2
  1

  9
$DIMSTYLE
  2
ISO-25
  9
$DIMCLRD
 70
     0
  9
$DIMCLRE
 70
     0
  9
$DIMCLRT
 70
     0
  9
$DIMTFAC
 40
1.0
  9
$DIMGAP
 40
1.524
  9
$DIMJUST
 70
     0
  9
$DIMSD1
 70
     0
  9
$DIMSD2
 70
     0
  9
$DIMTOLJ
 70
     0
  9
$DIMTZIN
 70
     0
  9
$DIMALTZ
 70
     0
  9
$DIMALTTZ
 70
     0
  9
$DIMUPT
 70
     0
  9
$DIMDEC
 70
     2
  9
$DIMTDEC
 70
     2
  9
$DIMALTU
 70
     2
  9
$DIMALTTD
 70
     3
  9
$DIMTXSTY
  7
Standard
  9
$DIMAUNIT
 70
     0
  9
$DIMADEC
 70
     2
  9
$DIMALTRND
 40
0.0
  9
$DIMAZIN
 70
     0
  9
$DIMDSEP
 70
    44
  9
$DIMATFIT
 70
     3
  9
$DIMFRAC
 70
     0
  9
$DIMLDRBLK
  1

  9
$DIMLUNIT
 70
     2
  9
$DIMLWD
 70
    -2
  9
$DIMLWE
 70
    -2
  9
$DIMTMOVE
 70
     0
  9
$LUNITS
 70
     2
  9
$LUPREC
 70
     2
  9
$SKETCHINC
 40
1.0
  9
$FILLETRAD
 40
10.0
  9
$AUNITS
 70
     0
  9
$AUPREC
 70
     2
  9
$MENU
  1
.
  9
$ELEVATION
 40
0.0
  9
$PELEVATION
 40
0.0
  9
$THICKNESS
 40
0.0
  9
$LIMCHECK
 70
     0
  9
$CHAMFERA
 40
0.0
  9
$CHAMFERB
 40
0.0
  9
$CHAMFERC
 40
0.0
  9
$CHAMFERD
 40
0.0
  9
$SKPOLY
 70
     0
  9
$TDCREATE
 40
2458985.633326713
  9
$TDUCREATE
 40
2458985.508326713
  9
$TDUPDATE
 40
2458985.633326956
  9
$TDUUPDATE
 40
2458985.508326956
  9
$TDINDWG
 40
0.0000000116
  9
$TDUSRTIMER
 40
0.0000000116
  9
$USRTIMER
 70
     1
  9
$ANGBASE
 50
0.0
  9
$ANGDIR
 70
     0
  9
$PDMODE
 70
     0
  9
$PDSIZE
 40
-1.0
  9
$PLINEWID
 40
0.0
  9
$SPLFRAME
 70
     0
  9
$SPLINETYPE
 70
     6
  9
$SPLINESEGS
 70
     8
  9
$HANDSEED
  5
CE
  9
$SURFTAB1
 70
     6
  9
$SURFTAB2
 70
     6
  9
$SURFTYPE
 70
     6
  9
$SURFU
 70
     6
  9
$SURFV
 70
     6
  9
$UCSBASE
  2

  9
$UCSNAME
  2

  9
$UCSORG
 10
0.0
 20
0.0
 30
0.0
  9
$UCSXDIR
 10
1.0
 20
0.0
 30
0.0
  9
$UCSYDIR
 10
0.0
 20
1.0
 30
0.0
  9
$UCSORTHOREF
  2

  9
$UCSORTHOVIEW
 70
     0
  9
$UCSORGTOP
 10
0.0
 20
0.0
 30
0.0
  9
$UCSORGBOTTOM
 10
0.0
 20
0.0
 30
0.0
  9
$UCSORGLEFT
 10
0.0
 20
0.0
 30
0.0
  9
$UCSORGRIGHT
 10
0.0
 20
0.0
 30
0.0
  9
$UCSORGFRONT
 10
0.0
 20
0.0
 30
0.0
  9
$UCSORGBACK
 10
0.0
 20
0.0
 30
0.0
  9
$PUCSBASE
  2

  9
$PUCSNAME
  2

  9
$PUCSORG
 10
0.0
 20
0.0
 30
0.0
  9
$PUCSXDIR
 10
1.0
 20
0.0
 30
0.0
  9
$PUCSYDIR
 10
0.0
 20
1.0
 30
0.0
  9
$PUCSORTHOREF
  2

  9
$PUCSORTHOVIEW
 70
     0
  9
$PUCSORGTOP
 10
0.0
 20
0.0
 30
0.0
  9
$PUCSORGBOTTOM
 10
0.0
 20
0.0
 30
0.0
  9
$PUCSORGLEFT
 10
0.0
 20
0.0
 30
0.0
  9
$PUCSORGRIGHT
 10
0.0
 20
0.0
 30
0.0
  9
$PUCSORGFRONT
 10
0.0
 20
0.0
 30
0.0
  9
$PUCSORGBACK
 10
0.0
 20
0.0
 30
0.0
  9
$USERI1
 70
     0
  9
$USERI2
 70
     0
  9
$USERI3
 70
     0
  9
$USERI4
 70
     0
  9
$USERI5
 70
     0
  9
$USERR1
 40
0.0
  9
$USERR2
 40
0.0
  9
$USERR3
 40
0.0
  9
$USERR4
 40
0.0
  9
$USERR5
 40
0.0
  9
$WORLDVIEW
 70
     1
  9
$SHADEDGE
 70
     3
  9
$SHADEDIF
 70
    70
  9
$TILEMODE
 70
     1
  9
$MAXACTVP
 70
    64
  9
$PINSBASE
 10
0.0
 20
0.0
 30
0.0
  9
$PLIMCHECK
 70
     0
  9
$PEXTMIN
 10
1.0000000000E+20
 20
1.0000000000E+20
 30
1.0000000000E+20
  9
$PEXTMAX
 10
-1.0000000000E+20
 20
-1.0000000000E+20
 30
-1.0000000000E+20
  9
$PLIMMIN
 10
0.0
 20
0.0
  9
$PLIMMAX
 10
420.0
 20
297.0
  9
$UNITMODE
 70
     0
  9
$VISRETAIN
 70
     1
  9
$PLINEGEN
 70
     0
  9
$PSLTSCALE
 70
     1
  9
$TREEDEPTH
 70
  3020
  9
$CMLSTYLE
  2
Standard
  9
$CMLJUST
 70
     0
  9
$CMLSCALE
 40
20.0
  9
$PROXYGRAPHICS
 70
     1
  9
$MEASUREMENT
 70
     1
  9
$CELWEIGHT
370
    -1
  9
$ENDCAPS
280
     0
  9
$JOINSTYLE
280
     0
  9
$LWDISPLAY
290
     1
  9
$INSUNITS
 70
     4
  9
$HYPERLINKBASE
  1

  9
$STYLESHEET
  1

  9
$XEDIT
290
     1
  9
$CEPSNTYPE
380
     0
  9
$PSTYLEMODE
290
     1
  9
$FINGERPRINTGUID
  2
{28c0b332-8fa0-447e-8216-9b6a45a54f3b}
  9
$VERSIONGUID
  2
{FAEB1C32-E019-11D5-929B-00C0DF256EC4}
  9
$EXTNAMES
290
     1
  9
$PSVPSCALE
 40
0.0
  9
$OLESTARTUP
290
     0
  0
ENDSEC
  0
SECTION
  2
CLASSES
  0
CLASS
  1
ACDBDICTIONARYWDFLT
  2
AcDbDictionaryWithDefault
  3
ObjectDBX Classes
 90
        0
280
     0
281
     0
  0
CLASS
  1
VISUALSTYLE
  2
AcDbVisualStyle
  3
ObjectDBX Classes
 90
     4095
280
     0
281
     0
  0
CLASS
  1
MATERIAL
  2
AcDbMaterial
  3
ObjectDBX Classes
 90
     1153
280
     0
281
     0
  0
CLASS
  1
SCALE
  2
AcDbScale
  3
ObjectDBX Classes
 90
     1153
280
     0
281
     0
  0
CLASS
  1
TABLESTYLE
  2
AcDbTableStyle
  3
ObjectDBX Classes
 90
     4095
280
     0
281
     0
  0
CLASS
  1
MLEADERSTYLE
  2
AcDbMLeaderStyle
  3
ACDB_MLEADERSTYLE_CLASS
 90
     4095
280
     0
281
     0
  0
CLASS
  1
SUN
  2
AcDbSun
  3
SCENEOE
 90
     1153
280
     0
281
     0
  0
CLASS
  1
ACDBPLACEHOLDER
  2
AcDbPlaceHolder
  3
ObjectDBX Classes
 90
        0
280
     0
281
     0
  0
CLASS
  1
LAYOUT
  2
AcDbLayout
  3
ObjectDBX Classes
 90
        0
280
     0
281
     0
  0
ENDSEC
  0
SECTION
  2
TABLES
  0
TABLE
  2
VPORT
  5
8
330
0
100
AcDbSymbolTable
 70
     1
  0
VPORT
  5
29
330
8
100
AcDbSymbolTableRecord
100
AcDbViewportTableRecord
  2
*Active
 70
     0
 10
0.0
 20
0.0
 11
1.0
 21
1.0
 12
139.7
 22
107.95
 13
0.0
 23
0.0
 14
10.0
 24
10.0
 15
10.0
 25
10.0
 16
0.0
 26
0.0
 36
1.0
 17
0.0
 27
0.0
 37
0.0
 40
215.9
 41
1.2941176471
 42
50.0
 43
0.0
 44
0.0
 50
0.0
 51
0.0
 71
     0
 72
  2000
 73
     1
 74
     3
 75
     0
 76
     0
 77
     0
 78
     0
281
     0
 65
     1
110
0.0
120
0.0
130
0.0
111
1.0
121
0.0
131
0.0
112
0.0
122
1.0
132
0.0
 79
     0
146
0.0
  0
ENDTAB
  0
TABLE
  2
LTYPE
  5
5
330
0
100
AcDbSymbolTable
 70
     6
  0
LTYPE
  5
14
330
5
100
AcDbSymbolTableRecord
100
AcDbLinetypeTableRecord
  2
ByBlock
 70
     0
  3

 72
    65
 73
     0
 40
0.0
  0
LTYPE
  5
15
330
5
100
AcDbSymbolTableRecord
100
AcDbLinetypeTableRecord
  2
ByLayer
 70
     0
  3

 72
    65
 73
     0
 40
0.0
  0
LTYPE
  5
16
330
5
100
AcDbSymbolTableRecord
100
AcDbLinetypeTableRecord
  2
Continuous
 70
     0
  3
Solid line
 72
    65
 73
     0
 40
0.0
  0
LTYPE
  5
6E
330
5
100
AcDbSymbolTableRecord
100
AcDbLinetypeTableRecord
  2
HIDDEN
 70
     0
  3
Hidden __ __ __ __ __ __ __ __ __ __ __ __ __ __
 72
    65
 73
     2
 40
1.905
 49
1.27
 74
     0
 49
-0.635
 74
     0
  0
LTYPE
  5
6F
330
5
100
AcDbSymbolTableRecord
100
AcDbLinetypeTableRecord
  2
PHANTOM
 70
     0
  3
Phantom ______  __  __  ______  __  __  ______
 72
    65
 73
     6
 40
12.7
 49
6.35
 74
     0
 49
-1.27
 74
     0
 49
1.27
 74
     0
 49
-1.27
 74
     0
 49
1.27
 74
     0
 49
-1.27
 74
     0
  0
LTYPE
  5
70
330
5
100
AcDbSymbolTableRecord
100
AcDbLinetypeTableRecord
  2
CENTER
 70
     0
  3
Center ____ _ ____ _ ____ _ ____ _ ____ _ ____
 72
    65
 73
     4
 40
10.16
 49
6.35
 74
     0
 49
-1.27
 74
     0
 49
1.27
 74
     0
 49
-1.27
 74
     0
  0
LTYPE
  5
71
330
5
100
AcDbSymbolTableRecord
100
AcDbLinetypeTableRecord
  2
CENTERX2
 70
     0
  3
Center (2x) ________  __  ________  __  _____
 72
    65
 73
     4
 40
20.32
 49
12.7
 74
     0
 49
-2.54
 74
     0
 49
2.54
 74
     0
 49
-2.54
 74
     0
  0
LTYPE
  5
72
330
5
100
AcDbSymbolTableRecord
100
AcDbLinetypeTableRecord
  2
DOT2
 70
     0
  3
Dot (.5x) ........................................
 72
    65
 73
     2
 40
0.635
 49
0.0
 74
     0
 49
-0.635
 74
     0
  0
ENDTAB
  0
TABLE
  2
LAYER
  5
2
330
0
100
AcDbSymbolTable
 70
    17
  0
LAYER
  5
10
330
2
100
AcDbSymbolTableRecord
100
AcDbLayerTableRecord
  2
0
 70
     0
 62
     7
  6
Continuous
370
    -3
390
F
  0
LAYER
  5
73
330
2
100
AcDbSymbolTableRecord
100
AcDbLayerTableRecord
  2
FORMAT
 70
     0
 62
     7
  6
Continuous
370
    -3
390
F
  0
LAYER
  5
74
330
2
100
AcDbSymbolTableRecord
100
AcDbLayerTableRecord
  2
YARDIMCI_GEOMETRI
 70
     0
 62
    -6
  6
Continuous
290
     0
370
    -3
390
F
  0
LAYER
  5
75
330
2
100
AcDbSymbolTableRecord
100
AcDbLayerTableRecord
  2
SAYFA_CERCEVESI
 70
     0
 62
     7
  6
Continuous
370
    25
390
F
  0
LAYER
  5
76
330
2
100
AcDbSymbolTableRecord
100
AcDbLayerTableRecord
  2
ANTET
 70
     0
 62
     7
  6
Continuous
370
    -3
390
F
  0
LAYER
  5
77
330
2
100
AcDbSymbolTableRecord
100
AcDbLayerTableRecord
  2
OLCU
 70
     0
 62
   150
  6
Continuous
370
    -3
390
F
  0
LAYER
  5
78
330
2
100
AcDbSymbolTableRecord
100
AcDbLayerTableRecord
  2
METIN
 70
     0
 62
    96
  6
Continuous
370
    -3
390
F
  0
LAYER
  5
79
330
2
100
AcDbSymbolTableRecord
100
AcDbLayerTableRecord
  2
BALON
 70
     0
 62
     5
  6
Continuous
370
    -3
390
F
  0
LAYER
  5
7A
330
2
100
AcDbSymbolTableRecord
100
AcDbLayerTableRecord
  2
VURGU
 70
     0
 62
     7
  6
Continuous
370
    -3
390
F
  0
LAYER
  5
7B
330
2
100
AcDbSymbolTableRecord
100
AcDbLayerTableRecord
  2
SILIK
 70
     0
 62
     7
  6
Continuous
370
    -3
390
F
  0
LAYER
  5
7C
330
2
100
AcDbSymbolTableRecord
100
AcDbLayerTableRecord
  2
MODEL
 70
     0
 62
     7
  6
Continuous
370
    -3
390
F
  0
LAYER
  5
7D
330
2
100
AcDbSymbolTableRecord
100
AcDbLayerTableRecord
  2
DETAYLANDıRMA
 70
     0
 62
   190
  6
Continuous
370
    -3
390
F
  0
LAYER
  5
7E
330
2
100
AcDbSymbolTableRecord
100
AcDbLayerTableRecord
  2
TOLERANS
 70
     0
 62
   230
  6
Continuous
370
    -3
390
F
  0
LAYER
  5
7F
330
2
100
AcDbSymbolTableRecord
100
AcDbLayerTableRecord
  2
MERKEZ_CIZGILERI
 70
     0
 62
    30
  6
Continuous
370
    -3
390
F
  0
LAYER
  5
80
330
2
100
AcDbSymbolTableRecord
100
AcDbLayerTableRecord
  2
KESIT-DETAY_CIZGILERI
 70
     0
 62
     7
  6
Continuous
370
    -3
390
F
  0
LAYER
  5
81
330
2
100
AcDbSymbolTableRecord
100
AcDbLayerTableRecord
  2
\U+041E\U+0421\U+0415\U+0412\U+042B\U+0415
 70
     0
 62
     7
  6
Continuous
370
    -3
390
F
  0
LAYER
  5
82
330
2
100
AcDbSymbolTableRecord
100
AcDbLayerTableRecord
  2
\U+0412\U+041E\U+0414\U+042F\U+041D\U+042B\U+0415_\U+0417\U+041D\U+0410\U+041A\U+0418
 70
     0
 62
    11
  6
Continuous
370
    -3
390
F
  0
ENDTAB
  0
TABLE
  2
STYLE
  5
3
330
0
100
AcDbSymbolTable
 70
     1
  0
STYLE
  5
11
330
3
100
AcDbSymbolTableRecord
100
AcDbTextStyleTableRecord
  2
Standard
 70
     0
 40
0.0
 41
1.0
 50
0.0
 71
     0
 42
3.5
  3
txt
  4

  0
ENDTAB
  0
TABLE
  2
VIEW
  5
6
330
0
100
AcDbSymbolTable
 70
     0
  0
ENDTAB
  0
TABLE
  2
UCS
  5
7
330
0
100
AcDbSymbolTable
 70
     0
  0
ENDTAB
  0
TABLE
  2
APPID
  5
9
330
0
100
AcDbSymbolTable
 70
     1
  0
APPID
  5
12
330
9
100
AcDbSymbolTableRecord
100
AcDbRegAppTableRecord
  2
ACAD
 70
     0
  0
ENDTAB
  0
TABLE
  2
DIMSTYLE
  5
A
330
0
100
AcDbSymbolTable
 70
     1
100
AcDbDimStyleTable
  0
DIMSTYLE
105
27
330
A
100
AcDbSymbolTableRecord
100
AcDbDimStyleTableRecord
  2
ISO-25
 70
     0
 41
2.5
 42
0.625
 43
3.75
 44
1.25
 73
     0
 74
     0
 77
     1
 78
     8
140
2.5
141
2.5
143
0.0393700787
147
0.625
171
     3
172
     1
178
     0
271
     2
272
     2
274
     3
278
    44
283
     0
284
     8
340
11
  0
ENDTAB
  0
TABLE
  2
BLOCK_RECORD
  5
1
330
0
100
AcDbSymbolTable
 70
     2
  0
BLOCK_RECORD
  5
1F
330
1
100
AcDbSymbolTableRecord
100
AcDbBlockTableRecord
  2
*Model_Space
340
22
  0
BLOCK_RECORD
  5
1B
330
1
100
AcDbSymbolTableRecord
100
AcDbBlockTableRecord
  2
*Paper_Space
340
1E
  0
BLOCK_RECORD
  5
23
330
1
100
AcDbSymbolTableRecord
100
AcDbBlockTableRecord
  2
*Paper_Space0
340
26
  0
BLOCK_RECORD
  5
87
330
1
100
AcDbSymbolTableRecord
100
AcDbBlockTableRecord
  2
SW_CENTERMARKSYMBOL_0
340
0
102
{BLKREFS
331
92
102
}
  0
ENDTAB
  0
ENDSEC
  0
SECTION
  2
BLOCKS
  0
BLOCK
  5
20
330
1F
100
AcDbEntity
  8
0
100
AcDbBlockBegin
  2
*Model_Space
 70
     0
 10
0.0
 20
0.0
 30
0.0
  3
*Model_Space
  1

  0
ENDBLK
  5
21
330
1F
100
AcDbEntity
  8
0
100
AcDbBlockEnd
  0
BLOCK
  5
1C
330
1B
100
AcDbEntity
 67
     1
  8
0
100
AcDbBlockBegin
  2
*Paper_Space
 70
     0
 10
0.0
 20
0.0
 30
0.0
  3
*Paper_Space
  1

  0
ENDBLK
  5
1D
330
1B
100
AcDbEntity
 67
     1
  8
0
100
AcDbBlockEnd
  0
BLOCK
  5
24
330
23
100
AcDbEntity
  8
0
100
AcDbBlockBegin
  2
*Paper_Space0
 70
     0
 10
0.0
 20
0.0
 30
0.0
  3
*Paper_Space0
  1

  0
ENDBLK
  5
25
330
23
100
AcDbEntity
  8
0
100
AcDbBlockEnd
  0
BLOCK
  5
88
330
87
100
AcDbEntity
  8
0
100
AcDbBlockBegin
  2
SW_CENTERMARKSYMBOL_0
 70
     0
 10
0.0
 20
0.0
 30
0.0
  3
SW_CENTERMARKSYMBOL_0
  1

  0
LINE
  5
8A
330
87
100
AcDbEntity
  8
FORMAT
 62
     0
100
AcDbLine
 10
0.0
 20
0.0
 30
0.0
 11
0.0
 21
2.5
 31
0.0
  0
LINE
  5
8B
330
87
100
AcDbEntity
  8
FORMAT
 62
     0
100
AcDbLine
 10
0.0
 20
0.0
 30
0.0
 11
-2.5
 21
0.0
 31
0.0
  0
LINE
  5
8C
330
87
100
AcDbEntity
  8
FORMAT
 62
     0
100
AcDbLine
 10
0.0
 20
0.0
 30
0.0
 11
0.0
 21
-2.5
 31
0.0
  0
LINE
  5
8D
330
87
100
AcDbEntity
  8
FORMAT
 62
     0
100
AcDbLine
 10
0.0
 20
0.0
 30
0.0
 11
2.5
 21
0.0
 31
0.0
  0
LINE
  5
8E
330
87
100
AcDbEntity
  8
FORMAT
 62
     0
100
AcDbLine
 10
0.0
 20
5.0
 30
0.0
 11
0.0
 21
297.5
 31
0.0
  0
LINE
  5
8F
330
87
100
AcDbEntity
  8
FORMAT
 62
     0
100
AcDbLine
 10
-5.0
 20
0.0
 30
0.0
 11
-297.5
 21
0.0
 31
0.0
  0
LINE
  5
90
330
87
100
AcDbEntity
  8
FORMAT
 62
     0
100
AcDbLine
 10
0.0
 20
-5.0
 30
0.0
 11
0.0
 21
-297.5
 31
0.0
  0
LINE
  5
91
330
87
100
AcDbEntity
  8
FORMAT
 62
     0
100
AcDbLine
 10
5.0
 20
0.0
 30
0.0
 11
297.5
 21
0.0
 31
0.0
  0
ENDBLK
  5
89
330
87
100
AcDbEntity
  8
0
100
AcDbBlockEnd
  0
ENDSEC
  0
SECTION
  2
ENTITIES
  0
CIRCLE
  5
83
330
1F
100
AcDbEntity
  8
0
  6
Continuous
 62
     7
370
    25
100
AcDbCircle
 10
139.9101222998
 20
106.3976471814
 30
0.0
 40
250.0
  0
CIRCLE
  5
84
330
1F
100
AcDbEntity
  8
0
  6
Continuous
 62
     7
370
    25
100
AcDbCircle
 10
139.9101222998
 20
106.3976471814
 30
0.0
 40
204.6000000000001
  0
CIRCLE
  5
85
330
1F
100
AcDbEntity
  8
0
  6
Continuous
 62
     7
370
    25
100
AcDbCircle
 10
139.9101222998
 20
106.3976471814
 30
0.0
 40
265.0
  0
CIRCLE
  5
86
330
1F
100
AcDbEntity
  8
0
  6
Continuous
 62
     7
370
    25
100
AcDbCircle
 10
139.9101222998
 20
106.3976471814
 30
0.0
 40
295.0
  0
INSERT
  5
92
330
1F
100
AcDbEntity
  8
FORMAT
 62
     7
100
AcDbBlockReference
  2
SW_CENTERMARKSYMBOL_0
 10
139.9101222998
 20
106.3976471814
 30
0.0
  0
LINE
  5
93
330
1F
100
AcDbEntity
  8
0
  6
Continuous
 62
     7
370
    25
100
AcDbLine
 10
434.9101222998
 20
511.6194397608
 30
0.0
 11
434.9101222998
 21
571.6194397608
 31
0.0
  0
LINE
  5
94
330
1F
100
AcDbEntity
  8
0
  6
Continuous
 62
     7
370
    25
100
AcDbLine
 10
-155.0898777002
 20
571.6194397608
 30
0.0
 11
-155.0898777002
 21
511.6194397608
 31
0.0
  0
LINE
  5
95
330
1F
100
AcDbEntity
  8
0
  6
Continuous
 62
     7
370
    25
100
AcDbLine
 10
404.9101222998
 20
571.6194397608
 30
0.0
 11
389.9101222998
 21
653.6194397608
 31
0.0
  0
LINE
  5
96
330
1F
100
AcDbEntity
  8
0
  6
Continuous
 62
     7
370
    25
100
AcDbLine
 10
-110.0898777002
 20
653.6194397608
 30
0.0
 11
-125.0898777002
 21
571.6194397608
 31
0.0
  0
LINE
  5
97
330
1F
100
AcDbEntity
  8
0
  6
Continuous
 62
     7
370
    25
100
AcDbLine
 10
389.9101222998
 20
653.6194397608
 30
0.0
 11
389.9101222998
 21
865.6194397608
 31
0.0
  0
LINE
  5
98
330
1F
100
AcDbEntity
  8
0
  6
Continuous
 62
     7
370
    25
100
AcDbLine
 10
-110.0898777002
 20
865.6194397608
 30
0.0
 11
-110.0898777002
 21
653.6194397608
 31
0.0
  0
LINE
  5
99
330
1F
100
AcDbEntity
  8
0
  6
Continuous
 62
     7
370
    25
100
AcDbLine
 10
434.9101222998
 20
511.6194397608
 30
0.0
 11
-155.0898777002
 21
511.6194397608
 31
0.0
  0
LINE
  5
9A
330
1F
100
AcDbEntity
  8
0
  6
Continuous
 62
     7
370
    25
100
AcDbLine
 10
434.9101222998
 20
571.6194397608
 30
0.0
 11
-155.0898777002
 21
571.6194397608
 31
0.0
  0
LINE
  5
9B
330
1F
100
AcDbEntity
  8
0
  6
Continuous
 62
     7
370
    25
100
AcDbLine
 10
389.9101222998
 20
653.6194397608
 30
0.0
 11
-110.0898777002
 21
653.6194397608
 31
0.0
  0
LINE
  5
9C
330
1F
100
AcDbEntity
  8
0
  6
Continuous
 62
     7
370
    25
100
AcDbLine
 10
389.9101222998
 20
865.6194397608
 30
0.0
 11
-110.0898777002
 21
865.6194397608
 31
0.0
  0
LINE
  5
9D
330
1F
100
AcDbEntity
  8
0
  6
Continuous
 62
     7
370
    25
100
AcDbLine
 10
-295.4172583644
 20
401.3976471814
 30
0.0
 11
-355.4172583644
 21
401.3976471814
 31
0.0
  0
LINE
  5
9E
330
1F
100
AcDbEntity
  8
0
  6
Continuous
 62
     7
370
    25
100
AcDbLine
 10
-355.4172583644
 20
-188.6023528186
 30
0.0
 11
-295.4172583644
 21
-188.6023528186
 31
0.0
  0
LINE
  5
9F
330
1F
100
AcDbEntity
  8
0
  6
Continuous
 62
     7
370
    25
100
AcDbLine
 10
-355.4172583644
 20
371.3976471814
 30
0.0
 11
-437.4172583644
 21
356.3976471814
 31
0.0
  0
LINE
  5
A0
330
1F
100
AcDbEntity
  8
0
  6
Continuous
 62
     7
370
    25
100
AcDbLine
 10
-437.4172583644
 20
-143.6023528186
 30
0.0
 11
-355.4172583644
 21
-158.6023528186
 31
0.0
  0
LINE
  5
A1
330
1F
100
AcDbEntity
  8
0
  6
Continuous
 62
     7
370
    25
100
AcDbLine
 10
-437.4172583644
 20
356.3976471814
 30
0.0
 11
-649.4172583644
 21
356.3976471814
 31
0.0
  0
LINE
  5
A2
330
1F
100
AcDbEntity
  8
0
  6
Continuous
 62
     7
370
    25
100
AcDbLine
 10
-649.4172583644
 20
-143.6023528186
 30
0.0
 11
-437.4172583644
 21
-143.6023528186
 31
0.0
  0
LINE
  5
A3
330
1F
100
AcDbEntity
  8
0
  6
Continuous
 62
     7
370
    25
100
AcDbLine
 10
-295.4172583644
 20
401.3976471814
 30
0.0
 11
-295.4172583644
 21
-188.6023528186
 31
0.0
  0
LINE
  5
A4
330
1F
100
AcDbEntity
  8
0
  6
Continuous
 62
     7
370
    25
100
AcDbLine
 10
-355.4172583644
 20
401.3976471814
 30
0.0
 11
-355.4172583644
 21
-188.6023528186
 31
0.0
  0
LINE
  5
A5
330
1F
100
AcDbEntity
  8
0
  6
Continuous
 62
     7
370
    25
100
AcDbLine
 10
-437.4172583644
 20
356.3976471814
 30
0.0
 11
-437.4172583644
 21
-143.6023528186
 31
0.0
  0
LINE
  5
A6
330
1F
100
AcDbEntity
  8
0
  6
Continuous
 62
     7
370
    25
100
AcDbLine
 10
-649.4172583644
 20
356.3976471814
 30
0.0
 11
-649.4172583644
 21
-143.6023528186
 31
0.0
  0
LINE
  5
A7
330
1F
100
AcDbEntity
  8
0
  6
Continuous
 62
     7
370
    25
100
AcDbLine
 10
576.3052485724
 20
-188.6023528186
 30
0.0
 11
636.3052485724
 21
-188.6023528186
 31
0.0
  0
LINE
  5
A8
330
1F
100
AcDbEntity
  8
0
  6
Continuous
 62
     7
370
    25
100
AcDbLine
 10
636.3052485724
 20
401.3976471814
 30
0.0
 11
576.3052485724
 21
401.3976471814
 31
0.0
  0
LINE
  5
A9
330
1F
100
AcDbEntity
  8
0
  6
Continuous
 62
     7
370
    25
100
AcDbLine
 10
636.3052485724
 20
-158.6023528186
 30
0.0
 11
718.3052485724
 21
-143.6023528186
 31
0.0
  0
LINE
  5
AA
330
1F
100
AcDbEntity
  8
0
  6
Continuous
 62
     7
370
    25
100
AcDbLine
 10
718.3052485724
 20
356.3976471814
 30
0.0
 11
636.3052485724
 21
371.3976471814
 31
0.0
  0
LINE
  5
AB
330
1F
100
AcDbEntity
  8
0
  6
Continuous
 62
     7
370
    25
100
AcDbLine
 10
718.3052485724
 20
-143.6023528186
 30
0.0
 11
930.3052485724
 21
-143.6023528186
 31
0.0
  0
LINE
  5
AC
330
1F
100
AcDbEntity
  8
0
  6
Continuous
 62
     7
370
    25
100
AcDbLine
 10
930.3052485724
 20
356.3976471814
 30
0.0
 11
718.3052485724
 21
356.3976471814
 31
0.0
  0
LINE
  5
AD
330
1F
100
AcDbEntity
  8
0
  6
Continuous
 62
     7
370
    25
100
AcDbLine
 10
576.3052485724
 20
106.3976471814
 30
0.0
 11
576.3052485724
 21
401.3976471814
 31
0.0
  0
LINE
  5
AE
330
1F
100
AcDbEntity
  8
0
  6
Continuous
 62
     7
370
    25
100
AcDbLine
 10
576.3052485724
 20
-188.6023528186
 30
0.0
 11
576.3052485724
 21
106.3976471814
 31
0.0
  0
LINE
  5
AF
330
1F
100
AcDbEntity
  8
0
  6
Continuous
 62
     7
370
    25
100
AcDbLine
 10
636.3052485724
 20
106.3976471814
 30
0.0
 11
636.3052485724
 21
401.3976471814
 31
0.0
  0
LINE
  5
B0
330
1F
100
AcDbEntity
  8
0
  6
Continuous
 62
     7
370
    25
100
AcDbLine
 10
636.3052485724
 20
-188.6023528186
 30
0.0
 11
636.3052485724
 21
106.3976471814
 31
0.0
  0
LINE
  5
B1
330
1F
100
AcDbEntity
  8
0
  6
Continuous
 62
     7
370
    25
100
AcDbLine
 10
718.3052485724
 20
106.3976471814
 30
0.0
 11
718.3052485724
 21
356.3976471814
 31
0.0
  0
LINE
  5
B2
330
1F
100
AcDbEntity
  8
0
  6
Continuous
 62
     7
370
    25
100
AcDbLine
 10
718.3052485724
 20
-143.6023528186
 30
0.0
 11
718.3052485724
 21
106.3976471814
 31
0.0
  0
LINE
  5
B3
330
1F
100
AcDbEntity
  8
0
  6
Continuous
 62
     7
370
    25
100
AcDbLine
 10
930.3052485724
 20
106.3976471814
 30
0.0
 11
930.3052485724
 21
356.3976471814
 31
0.0
  0
LINE
  5
B4
330
1F
100
AcDbEntity
  8
0
  6
Continuous
 62
     7
370
    25
100
AcDbLine
 10
930.3052485724
 20
-143.6023528186
 30
0.0
 11
930.3052485724
 21
106.3976471814
 31
0.0
  0
LINE
  5
B5
330
1F
100
AcDbEntity
  8
0
  6
Continuous
 62
     7
370
    25
100
AcDbLine
 10
-155.0898777002
 20
-351.5109240324
 30
0.0
 11
-155.0898777002
 21
-411.5109240324
 31
0.0
  0
LINE
  5
B6
330
1F
100
AcDbEntity
  8
0
  6
Continuous
 62
     7
370
    25
100
AcDbLine
 10
434.9101222998
 20
-411.5109240324
 30
0.0
 11
434.9101222998
 21
-351.5109240324
 31
0.0
  0
LINE
  5
B7
330
1F
100
AcDbEntity
  8
0
  6
Continuous
 62
     7
370
    25
100
AcDbLine
 10
-125.0898777002
 20
-411.5109240324
 30
0.0
 11
-110.0898777002
 21
-493.5109240324
 31
0.0
  0
LINE
  5
B8
330
1F
100
AcDbEntity
  8
0
  6
Continuous
 62
     7
370
    25
100
AcDbLine
 10
389.9101222998
 20
-493.5109240324
 30
0.0
 11
404.9101222998
 21
-411.5109240324
 31
0.0
  0
LINE
  5
B9
330
1F
100
AcDbEntity
  8
0
  6
Continuous
 62
     7
370
    25
100
AcDbLine
 10
-110.0898777002
 20
-493.5109240324
 30
0.0
 11
-110.0898777002
 21
-705.5109240324
 31
0.0
  0
LINE
  5
BA
330
1F
100
AcDbEntity
  8
0
  6
Continuous
 62
     7
370
    25
100
AcDbLine
 10
389.9101222998
 20
-705.5109240324
 30
0.0
 11
389.9101222998
 21
-493.5109240324
 31
0.0
  0
LINE
  5
BB
330
1F
100
AcDbEntity
  8
0
  6
Continuous
 62
     7
370
    25
100
AcDbLine
 10
-155.0898777002
 20
-351.5109240324
 30
0.0
 11
434.9101222998
 21
-351.5109240324
 31
0.0
  0
LINE
  5
BC
330
1F
100
AcDbEntity
  8
0
  6
Continuous
 62
     7
370
    25
100
AcDbLine
 10
-155.0898777002
 20
-411.5109240324
 30
0.0
 11
434.9101222998
 21
-411.5109240324
 31
0.0
  0
LINE
  5
BD
330
1F
100
AcDbEntity
  8
0
  6
Continuous
 62
     7
370
    25
100
AcDbLine
 10
-110.0898777002
 20
-493.5109240324
 30
0.0
 11
389.9101222998
 21
-493.5109240324
 31
0.0
  0
LINE
  5
BE
330
1F
100
AcDbEntity
  8
0
  6
Continuous
 62
     7
370
    25
100
AcDbLine
 10
-110.0898777002
 20
-705.5109240324
 30
0.0
 11
389.9101222998
 21
-705.5109240324
 31
0.0
  0
LINE
  5
BF
330
1F
100
AcDbEntity
  8
0
  6
Continuous
 62
     7
370
    25
100
AcDbLine
 10
632.8273491168
 20
-396.3161034539
 30
0.0
 11
533.8879266636
 21
-492.8840128964
 31
0.0
  0
LINE
  5
C0
330
1F
100
AcDbEntity
  8
0
  6
Continuous
 62
     7
370
    25
100
AcDbLine
 10
883.127005989
 20
-850.6996993497
 30
0.0
 11
982.0664284421
 21
-754.1317899072
 31
0.0
  0
LINE
  5
C1
330
1F
100
AcDbEntity
  8
0
  6
Continuous
 62
     7
370
    25
100
AcDbLine
 10
634.2811000437
 20
-382.4057302509
 30
0.0
 11
618.2400793681
 21
-410.5537259221
 31
0.0
  0
LINE
  5
C2
330
1F
100
AcDbEntity
  8
0
  6
Continuous
 62
     7
370
    25
100
AcDbLine
 10
967.4791586935
 20
-768.3694123753
 30
0.0
 11
996.0079717016
 21
-753.0158840197
 31
0.0
  0
LINE
  5
C3
330
1F
100
AcDbEntity
  8
0
  6
Continuous
 62
     7
370
    25
100
AcDbLine
 10
667.6665772056
 20
-299.4304127069
 30
0.0
 11
639.6648538698
 21
-326.7609531152
 31
0.0
  0
LINE
  5
C4
330
1F
100
AcDbEntity
  8
0
  6
Continuous
 62
     7
370
    25
100
AcDbLine
 10
1051.7669674737
 20
-748.98346313
 30
0.0
 11
1079.7686908095
 21
-721.6529227218
 31
0.0
  0
LWPOLYLINE
  5
C5
330
1F
100
AcDbEntity
  8
0
  6
Continuous
 62
     7
370
    25
100
AcDbPolyline
 90
       86
 70
   128
 43
0.0
 10
632.8273491168
 20
-396.3161034539
 10
635.1375259293
 20
-394.1108981614
 10
640.4711055547
 20
-389.3737737759
 10
646.0410207294
 20
-384.8996995275
 10
651.8393878611
 20
-380.6950079682
 10
657.8580000098
 20
-376.7656503686
 10
664.0883385028
 20
-373.1171882949
 10
670.5215849928
 20
-369.7547857373
 10
677.1486339388
 20
-366.6832018006
 10
683.9601054939
 20
-363.9067839683
 10
690.946358782
 20
-361.4294619495
 10
698.0975055427
 20
-359.2547421165
 10
705.4034241275
 20
-357.3857025419
 10
712.8537738256
 20
-355.8249886423
 10
720.4380095001
 20
-354.5748094337
 10
728.1453965135
 20
-353.6369344049
 10
735.9650259214
 20
-353.0126910132
 10
743.8858299127
 20
-352.7029628053
 10
751.8965974752
 20
-352.7081881669
 10
759.9859902632
 20
-353.028359702
 10
768.1425586458
 20
-353.6630242436
 10
776.3547579125
 20
-354.611283495
 10
784.6109646136
 20
-355.8717953013
 10
792.8994930117
 20
-357.4427755491
 10
801.2086116218
 20
-359.3220006913
 10
809.5265598156
 20
-361.5068108951
 10
817.8415644676
 20
-363.9941138057
 10
826.1418566185
 20
-366.7803889242
 10
834.4156881331
 20
-369.8616925897
 10
842.6513483279
 20
-373.2336635614
 10
850.8371805469
 20
-376.8915291914
 10
858.96159866
 20
-380.83011218
 10
867.0131034619
 20
-385.0438379034
 10
874.9802989478
 20
-389.526742304
 10
882.8519084435
 20
-394.272480332
 10
890.616790566
 20
-399.2743349259
 10
898.2639549929
 20
-404.5252265197
 10
905.7825780182
 20
-410.0177230637
 10
913.1620178716
 20
-415.7440505432
 10
920.3918297813
 20
-421.6961039819
 10
927.461780757
 20
-427.8654589138
 10
934.3618640737
 20
-434.2433833069
 10
941.082313435
 20
-440.8208499225
 10
947.6136167964
 20
-447.5885490919
 10
953.9465298284
 20
-454.536901894
 10
960.0720890006
 20
-461.6560737122
 10
965.9816242691
 20
-468.9359881549
 10
971.6667713476
 20
-476.3663413174
 10
977.119483546
 20
-483.9366163656
 10
982.3320431601
 20
-491.6360984217
 10
987.2970723945
 20
-499.4538897298
 10
992.0075438056
 20
-507.3789250807
 10
996.4567902479
 20
-515.3999874729
 10
1000.6385143105
 20
-523.5057239896
 10
1004.5467972307
 20
-531.6846618672
 10
1008.1761072711
 20
-539.9252247337
 10
1011.521307549
 20
-548.2157489938
 10
1014.5776633076
 20
-556.5445003376
 10
1017.3408486172
 20
-564.8996903489
 10
1019.8069524978
 20
-573.2694931905
 10
1021.9724844552
 20
-581.6420623425
 10
1023.8343794211
 20
-590.0055473695
 10
1025.3900020914
 20
-598.3481106936
 10
1026.637150656
 20
-606.6579443494
 10
1027.5740599158
 20
-614.9232866966
 10
1028.1994037804
 20
-623.1324390674
 10
1028.5122971455
 20
-631.2737823245
 10
1028.5122971455
 20
-639.3357933069
 10
1028.1994037804
 20
-647.3070611398
 10
1027.5740599158
 20
-655.1763033847
 10
1026.637150656
 20
-662.9323820094
 10
1025.3900020914
 20
-670.5643191518
 10
1023.8343794211
 20
-678.0613126583
 10
1021.9724844552
 20
-685.4127513729
 10
1019.8069524978
 20
-692.6082301563
 10
1017.3408486172
 20
-699.6375646129
 10
1014.5776633076
 20
-706.4908055057
 10
1011.521307549
 20
-713.1582528387
 10
1008.1761072711
 20
-719.6304695857
 10
1004.5467972307
 20
-725.8982950477
 10
1000.6385143105
 20
-731.9528578186
 10
996.4567902479
 20
-737.7855883418
 10
992.0075438056
 20
-743.3882310397
 10
987.2970723945
 20
-748.7528559978
 10
982.3320431601
 20
-753.8718701896
 10
982.0664284421
 20
-754.1317899072
  0
LWPOLYLINE
  5
C6
330
1F
100
AcDbEntity
  8
0
  6
Continuous
 62
     7
370
    25
100
AcDbPolyline
 90
      168
 70
   128
 43
0.0
 10
487.4029359069
 20
-611.7003824521
 10
487.5594102759
 20
-603.6823243358
 10
488.0286119109
 20
-595.7606676455
 10
488.8098767094
 20
-587.9466246004
 10
489.9020988786
 20
-580.2512551045
 10
491.3037324999
 20
-572.685451093
 10
493.0127937179
 20
-565.2599211152
 10
495.0268635474
 20
-557.9851751786
 10
497.3430912978
 20
-550.8715098726
 10
499.9581986078
 20
-543.9289937948
 10
502.8684840854
 20
-537.1674533005
 10
506.069828547
 20
-530.5964585942
 10
509.5577008474
 20
-524.2253101839
 10
513.3271642934
 20
-518.063025718
 10
517.3728836311
 20
-512.1183272208
 10
521.6891325971
 20
-506.3996287485
 10
526.2698020236
 20
-500.9150244791
 10
531.1084084854
 20
-495.6722772568
 10
536.1981034761
 20
-490.6788076039
 10
541.5316831015
 20
-485.9416832184
 10
547.1015982762
 20
-481.4676089701
 10
552.899965408
 20
-477.2629174107
 10
558.9185775566
 20
-473.3335598111
 10
565.1489160496
 20
-469.6850977374
 10
571.5821625396
 20
-466.3226951798
 10
578.2092114856
 20
-463.2511112431
 10
585.0206830408
 20
-460.4746934108
 10
592.0069363288
 20
-457.9973713921
 10
599.1580830896
 20
-455.822651559
 10
606.4640016744
 20
-453.9536119844
 10
613.9143513724
 20
-452.3928980848
 10
621.4985870469
 20
-451.1427188762
 10
629.2059740603
 20
-450.2048438474
 10
637.0256034682
 20
-449.5806004557
 10
644.9464074596
 20
-449.2708722479
 10
652.9571750221
 20
-449.2760976094
 10
661.0465678101
 20
-449.5962691445
 10
669.2031361926
 20
-450.2309336861
 10
677.4153354593
 20
-451.1791929375
 10
685.6715421604
 20
-452.4397047438
 10
693.9600705585
 20
-454.0106849916
 10
702.2691891686
 20
-455.8899101338
 10
710.5871373624
 20
-458.0747203376
 10
718.9021420144
 20
-460.5620232482
 10
727.2024341654
 20
-463.3482983668
 10
735.4762656799
 20
-466.4296020322
 10
743.7119258747
 20
-469.8015730039
 10
751.8977580937
 20
-473.4594386339
 10
760.0221762068
 20
-477.3980216225
 10
768.0736810087
 20
-481.6117473459
 10
776.0408764946
 20
-486.0946517465
 10
783.9124859904
 20
-490.8403897745
 10
791.6773681128
 20
-495.8422443684
 10
799.3245325398
 20
-501.0931359622
 10
806.843155565
 20
-506.5856325062
 10
814.2225954184
 20
-512.3119599857
 10
821.4524073282
 20
-518.2640134244
 10
828.5223583039
 20
-524.4333683563
 10
835.4224416205
 20
-530.8112927494
 10
842.1428909819
 20
-537.388759365
 10
848.6741943433
 20
-544.1564585345
 10
855.0071073752
 20
-551.1048113365
 10
861.1326665474
 20
-558.2239831547
 10
867.042201816
 20
-565.5038975974
 10
872.7273488944
 20
-572.9342507599
 10
878.1800610928
 20
-580.5045258081
 10
883.3926207069
 20
-588.2040078642
 10
888.3576499413
 20
-596.0217991723
 10
893.0681213524
 20
-603.9468345232
 10
897.5173677947
 20
-611.9678969154
 10
901.6990918573
 20
-620.0736334321
 10
905.6073747776
 20
-628.2525713097
 10
909.2366848179
 20
-636.4931341762
 10
912.5818850958
 20
-644.7836584363
 10
915.6382408545
 20
-653.1124097801
 10
918.401426164
 20
-661.4675997914
 10
920.8675300446
 20
-669.8374026331
 10
923.033062002
 20
-678.209971785
 10
924.8949569679
 20
-686.573456812
 10
926.4505796382
 20
-694.9160201361
 10
927.6977282029
 20
-703.2258537919
 10
928.6346374626
 20
-711.4911961391
 10
929.2599813272
 20
-719.7003485099
 10
929.5728746923
 20
-727.841691767
 10
929.5728746923
 20
-735.9037027495
 10
929.2599813272
 20
-743.8749705823
 10
928.6346374626
 20
-751.7442128272
 10
927.6977282029
 20
-759.5002914519
 10
926.4505796382
 20
-767.1322285943
 10
924.8949569679
 20
-774.6292221008
 10
923.033062002
 20
-781.9806608154
 10
920.8675300446
 20
-789.1761395988
 10
918.401426164
 20
-796.2054740554
 10
915.6382408545
 20
-803.0587149482
 10
912.5818850958
 20
-809.7261622812
 10
909.2366848179
 20
-816.1983790282
 10
905.6073747775
 20
-822.4662044902
 10
901.6990918573
 20
-828.5207672611
 10
897.5173677947
 20
-834.3534977843
 10
893.0681213524
 20
-839.9561404822
 10
888.3576499413
 20
-845.3207654403
 10
883.3926207069
 20
-850.4397796321
 10
878.1800610928
 20
-855.3059376653
 10
872.7273488944
 20
-859.9123520374
 10
867.0422018159
 20
-864.2525028839
 10
861.1326665474
 20
-868.3202472067
 10
855.0071073752
 20
-872.1098275686
 10
848.6741943433
 20
-875.6158802423
 10
842.1428909819
 20
-878.8334428023
 10
835.4224416205
 20
-881.7579611487
 10
828.5223583039
 20
-884.3852959527
 10
821.4524073282
 20
-886.7117285156
 10
814.2225954184
 20
-888.7339660325
 10
806.843155565
 20
-890.4491462522
 10
799.3245325398
 20
-891.8548415289
 10
791.6773681128
 20
-892.9490622581
 10
783.9124859904
 20
-893.7302596927
 10
776.0408764946
 20
-894.1973281352
 10
768.0736810087
 20
-894.3496065024
 10
760.0221762068
 20
-894.1868792612
 10
751.8977580937
 20
-893.709376734
 10
743.7119258747
 20
-892.9177747721
 10
735.4762656799
 20
-891.8131937995
 10
727.2024341654
 20
-890.3971972273
 10
718.9021420144
 20
-888.67178924
 10
710.5871373624
 20
-886.6394119598
 10
702.2691891686
 20
-884.3029419896
 10
693.9600705585
 20
-881.6656863411
 10
685.6715421604
 20
-878.731377755
 10
677.4153354593
 20
-875.5041694168
 10
669.2031361926
 20
-871.9886290792
 10
661.0465678101
 20
-868.1897325963
 10
652.9571750221
 20
-864.1128568812
 10
644.9464074596
 20
-859.7637722958
 10
637.0256034682
 20
-855.1486344828
 10
629.2059740603
 20
-850.2739756538
 10
621.4985870469
 20
-845.1466953432
 10
613.9143513724
 20
-839.7740506429
 10
606.4640016744
 20
-834.1636459308
 10
599.1580830896
 20
-828.3234221073
 10
592.0069363288
 20
-822.2616453562
 10
585.0206830407
 20
-815.9868954446
 10
578.2092114856
 20
-809.5080535794
 10
571.5821625396
 20
-802.8342898366
 10
565.1489160496
 20
-795.9750501826
 10
558.9185775566
 20
-788.9400431042
 10
552.899965408
 20
-781.739225867
 10
547.1015982762
 20
-774.3827904228
 10
541.5316831015
 20
-766.8811489832
 10
536.1981034761
 20
-759.2449192829
 10
531.1084084854
 20
-751.484909551
 10
526.2698020236
 20
-743.6121032136
 10
521.6891325971
 20
-735.6376433478
 10
517.3728836311
 20
-727.5728169095
 10
513.3271642934
 20
-719.429038759
 10
509.5577008474
 20
-711.2178355034
 10
506.069828547
 20
-702.9508291828
 10
502.8684840854
 20
-694.6397208202
 10
499.9581986078
 20
-686.29627386
 10
497.3430912978
 20
-677.9322975185
 10
495.0268635474
 20
-669.5596300688
 10
493.0127937179
 20
-661.1901220855
 10
491.3037324999
 20
-652.8356196712
 10
489.9020988786
 20
-644.5079476898
 10
488.8098767094
 20
-636.2188930298
 10
488.0286119109
 20
-627.9801879211
 10
487.5594102759
 20
-619.8034933296
 10
487.4029359069
 20
-611.7003824521
  0
LWPOLYLINE
  5
C7
330
1F
100
AcDbEntity
  8
0
  6
Continuous
 62
     7
370
    25
100
AcDbPolyline
 90
      152
 70
   128
 43
0.0
 10
527.5555186311
 20
-622.6129940707
 10
527.712149171
 20
-615.3601678642
 10
528.1817696345
 20
-608.2050352821
 10
528.9635670221
 20
-601.1599831738
 10
530.056187899
 20
-594.2372078196
 10
531.4577407376
 20
-587.4486938158
 10
533.1657991923
 20
-580.8061933279
 10
535.1774063
 20
-574.3212057452
 10
537.4890795991
 20
-568.0049577731
 10
540.0968171582
 20
-561.8683839977
 10
542.9961045043
 20
-555.922107956
 10
546.1819224381
 20
-550.176423745
 10
549.6487557233
 20
-544.6412781998
 10
553.3906026342
 20
-539.3262536749
 10
557.4009853461
 20
-534.2405514545
 10
561.6729611494
 20
-529.392975824
 10
566.1991344689
 20
-524.7919188277
 10
570.9716696666
 20
-520.4453457409
 10
575.9823046069
 20
-516.3607812806
 10
581.2223649598
 20
-512.5452965785
 10
586.6827792177
 20
-509.00549694
 10
592.3540944
 20
-505.7475104088
 10
598.2264924176
 20
-502.7769771583
 10
604.2898070704
 20
-500.0990397277
 10
610.5335416462
 20
-497.7183341189
 10
616.9468870929
 20
-495.6389817707
 10
623.5187407307
 20
-493.8645824243
 10
630.2377254732
 20
-492.3982078912
 10
637.0922095228
 20
-491.242396735
 10
644.0703265078
 20
-490.3991498774
 10
651.1599960251
 20
-489.8699271337
 10
658.3489445538
 20
-489.6556446856
 10
665.6247267027
 20
-489.7566734956
 10
672.9747467556
 20
-490.1728386642
 10
680.3862804768
 20
-490.9034197329
 10
687.8464971393
 20
-491.9471519316
 10
695.3424817369
 20
-493.3022283682
 10
702.8612573424
 20
-494.9663031562
 10
710.3898075735
 20
-496.9364954762
 10
717.915099126
 20
-499.2093945634
 10
725.4241043369
 20
-501.7810656116
 10
732.9038237382
 20
-504.6470565856
 10
740.3413085609
 20
-507.8024059282
 10
747.7236831518
 20
-511.2416511497
 10
755.0381672635
 20
-514.9588382847
 10
762.2720981797
 20
-518.9475321989
 10
769.4129526364
 20
-523.2008277301
 10
776.4483685021
 20
-527.7113616419
 10
783.3661661788
 20
-532.4713253712
 10
790.1543696873
 20
-537.4724785458
 10
796.8012273997
 20
-542.7061632505
 10
803.2952323835
 20
-548.163319015
 10
809.6251423227
 20
-553.8344984998
 10
815.7799989796
 20
-559.7098838508
 10
821.7491471662
 20
-565.779303696
 10
827.5222531898
 20
-572.0322507542
 10
833.0893227429
 20
-578.4579000248
 10
838.4407182047
 20
-585.0451275279
 10
843.5671753263
 20
-591.7825295619
 10
848.4598192681
 20
-598.6584424456
 10
853.1101799643
 20
-605.6609627101
 10
857.5102067856
 20
-612.7779677057
 10
861.652282477
 20
-619.9971365887
 10
865.5292363442
 20
-627.3059716509
 10
869.1343566674
 20
-634.6918199555
 10
872.4614023207
 20
-642.1418952415
 10
875.5046135767
 20
-649.6433000594
 10
878.2587220773
 20
-657.1830480986
 10
880.7189599545
 20
-664.7480866696
 10
882.8810680843
 20
-672.3253193002
 10
884.7413034603
 20
-679.9016284079
 10
886.296445673
 20
-687.4638980093
 10
887.5438024854
 20
-694.9990364256
 10
888.4812144937
 20
-702.4939989475
 10
889.1070588654
 20
-709.9358104172
 10
889.4202521488
 20
-717.3115876913
 10
889.4202521488
 20
-724.6085619437
 10
889.1070588654
 20
-731.8141007708
 10
888.4812144937
 20
-738.9157300605
 10
887.5438024854
 20
-745.9011555873
 10
886.296445673
 20
-752.7582842957
 10
884.7413034603
 20
-759.4752452355
 10
882.8810680843
 20
-766.040410113
 10
880.7189599545
 20
-772.4424134209
 10
878.2587220773
 20
-778.6701721148
 10
875.5046135767
 20
-784.7129048
 10
872.4614023207
 20
-790.5601503954
 10
869.1343566674
 20
-796.2017862442
 10
865.5292363442
 20
-801.6280456378
 10
861.652282477
 20
-806.829534724
 10
857.5102067856
 20
-811.797248769
 10
853.1101799643
 20
-816.5225877469
 10
848.4598192681
 20
-820.9973712273
 10
843.5671753263
 20
-825.2138525376
 10
838.4407182047
 20
-829.1647321737
 10
833.0893227429
 20
-832.8431704367
 10
827.5222531898
 20
-836.242799274
 10
821.7491471662
 20
-839.3577333032
 10
815.7799989796
 20
-842.182580001
 10
809.6251423227
 20
-844.7124490385
 10
803.2952323835
 20
-846.9429607475
 10
796.8012273997
 20
-848.8702537022
 10
790.1543696873
 20
-850.4909914043
 10
783.3661661788
 20
-851.8023680589
 10
776.4483685021
 20
-852.8021134321
 10
769.4129526364
 20
-853.4884967808
 10
762.2720981797
 20
-853.8603298493
 10
755.0381672635
 20
-853.9169689262
 10
747.7236831518
 20
-853.6583159589
 10
740.3413085609
 20
-853.0848187232
 10
732.9038237382
 20
-852.1974700482
 10
725.4241043369
 20
-850.9978060976
 10
717.9150991259
 20
-849.4879037102
 10
710.3898075735
 20
-847.6703768045
 10
702.8612573424
 20
-845.5483718536
 10
695.3424817369
 20
-843.1255624381
 10
687.8464971393
 20
-840.4061428864
 10
680.3862804768
 20
-837.3948210137
 10
672.9747467556
 20
-834.0968099715
 10
665.6247267027
 20
-830.517819223
 10
658.3489445538
 20
-826.6640446592
 10
651.1599960251
 20
-822.542157872
 10
644.0703265078
 20
-818.1592946051
 10
637.0922095228
 20
-813.5230424004
 10
630.2377254732
 20
-808.6414274625
 10
623.5187407307
 20
-803.5229007642
 10
616.9468870929
 20
-798.1763234159
 10
610.5335416462
 20
-792.6109513256
 10
604.2898070704
 20
-786.8364191755
 10
598.2264924176
 20
-780.8627237419
 10
592.3540944
 20
-774.7002065896
 10
586.6827792177
 20
-768.3595361685
 10
581.2223649598
 20
-761.8516893443
 10
575.9823046069
 20
-755.1879323962
 10
570.9716696666
 20
-748.3798015122
 10
566.1991344689
 20
-741.4390828181
 10
561.6729611494
 20
-734.3777919737
 10
557.4009853461
 20
-727.2081533712
 10
553.3906026342
 20
-719.9425789728
 10
549.6487557233
 20
-712.5936468233
 10
546.1819224381
 20
-705.1740792749
 10
542.9961045043
 20
-697.6967209626
 10
540.0968171582
 20
-690.1745165681
 10
537.4890795991
 20
-682.6204884097
 10
535.1774063
 20
-675.0477138985
 10
533.1657991923
 20
-667.4693028991
 10
531.4577407376
 20
-659.8983750338
 10
530.056187899
 20
-652.3480369702
 10
528.9635670221
 20
-644.8313597313
 10
528.1817696345
 20
-637.3613560669
 10
527.712149171
 20
-629.9509579263
 10
527.5555186311
 20
-622.6129940707
  0
ARC
  5
C8
330
1F
100
AcDbEntity
  8
0
  6
Continuous
 62
     7
370
    25
100
AcDbCircle
 10
798.213418055
 20
-514.1555994672
 30
0.0
 40
159.8147270513547
100
AcDbArc
 50
171.6102271066
 51
180.0970985961
  0
LWPOLYLINE
  5
C9
330
1F
100
AcDbEntity
  8
0
  6
Continuous
 62
     7
370
    25
100
AcDbPolyline
 90
       49
 70
   128
 43
0.0
 10
887.749369038
 20
-744.5595530854
 10
887.2917703665
 20
-744.6155551508
 10
880.2563545008
 20
-745.3019384995
 10
873.1155000441
 20
-745.673771568
 10
865.8815691279
 20
-745.7304106449
 10
858.5670850162
 20
-745.4717576776
 10
851.1847104254
 20
-744.898260442
 10
843.7472256027
 20
-744.010911767
 10
836.2675062013
 20
-742.8112478164
 10
828.7585009904
 20
-741.3013454289
 10
821.233209438
 20
-739.4838185232
 10
813.7046592069
 20
-737.3618135723
 10
806.1858836013
 20
-734.9390041568
 10
798.6898990037
 20
-732.2195846052
 10
791.2296823412
 20
-729.2082627324
 10
783.81814862
 20
-725.9102516902
 10
776.4681285672
 20
-722.3312609418
 10
769.1923464183
 20
-718.4774863779
 10
762.0033978896
 20
-714.3555995907
 10
754.9137283722
 20
-709.9727363239
 10
747.9356113872
 20
-705.3364841191
 10
741.0811273376
 20
-700.4548691813
 10
734.3621425951
 20
-695.3363424829
 10
727.7902889573
 20
-689.9897651346
 10
721.3769435106
 20
-684.4243930444
 10
715.1332089349
 20
-678.6498608942
 10
709.0698942821
 20
-672.6761654606
 10
703.1974962644
 20
-666.5136483083
 10
697.5261810822
 20
-660.1729778872
 10
692.0657668242
 20
-653.6651310631
 10
686.8257064713
 20
-647.001374115
 10
681.815071531
 20
-640.1932432309
 10
677.0425363333
 20
-633.2525245368
 10
672.5163630139
 20
-626.1912336924
 10
668.2443872105
 20
-619.0215950899
 10
664.2340044986
 20
-611.7560206916
 10
660.4921575877
 20
-604.4070885421
 10
657.0253243026
 20
-596.9875209936
 10
653.8395063687
 20
-589.5101626813
 10
650.9402190227
 20
-581.9879582868
 10
648.3324814636
 20
-574.4339301284
 10
646.0208081645
 20
-566.8611556172
 10
644.0092010568
 20
-559.2827446178
 10
642.3011426021
 20
-551.7118167525
 10
640.8995897635
 20
-544.1614786889
 10
639.8069688866
 20
-536.64480145
 10
639.0251714989
 20
-529.1747977856
 10
638.5555510354
 20
-521.7643996451
 10
638.3989204955
 20
-514.4264357895
  0
LWPOLYLINE
  5
CA
330
1F
100
AcDbEntity
  8
0
  6
Continuous
 62
     7
370
    25
100
AcDbPolyline
 90
       99
 70
   128
 43
0.0
 10
634.2811000437
 20
-382.4057302509
 10
637.2800777683
 20
-377.3615254501
 10
641.3329912882
 20
-371.1543715166
 10
645.6586136037
 20
-365.1696697359
 10
650.2511730227
 20
-359.415405515
 10
655.1045416783
 20
-353.8992567876
 10
660.2122437049
 20
-348.6285837688
 10
665.5674638789
 20
-343.6104191349
 10
671.1630567127
 20
-338.8514586391
 10
676.9915559885
 20
-334.3580521781
 10
683.0451847207
 20
-330.1361953188
 10
689.3158655327
 20
-326.1915212985
 10
695.7952314348
 20
-322.5292935085
 10
702.4746369879
 20
-319.1543984715
 10
709.3451698393
 20
-316.0713393208
 10
716.3976626147
 20
-313.2842297923
 10
723.6227051501
 20
-310.7967887353
 10
731.0106570475
 20
-308.6123351506
 10
738.5516605387
 20
-306.7337837616
 10
746.2356536382
 20
-305.1636411257
 10
754.0523835688
 20
-303.9040022892
 10
761.9914204425
 20
-302.9565479924
 10
770.0421711764
 20
-302.3225424267
 10
778.1938936276
 20
-302.0028315476
 10
786.4357109262
 20
-301.9978419466
 10
794.7566259885
 20
-302.3075802811
 10
803.1455361905
 20
-302.9316332665
 10
811.5912481819
 20
-303.8691682266
 10
820.0824928218
 20
-305.1189342056
 10
828.6079402146
 20
-306.6792636367
 10
837.1562148281
 20
-308.5480745672
 10
845.7159106717
 20
-310.7228734365
 10
854.2756065154
 20
-313.2007584036
 10
862.8238811289
 20
-315.9784232183
 10
871.3493285217
 20
-319.0521616335
 10
879.8405731615
 20
-322.4178723499
 10
888.286285153
 20
-326.0710644889
 10
896.675195355
 20
-330.0068635842
 10
904.9961104173
 20
-334.2200180862
 10
913.2379277159
 20
-338.7049063692
 10
921.3896501671
 20
-343.4555442321
 10
929.440400901
 20
-348.4655928834
 10
937.3794377746
 20
-353.7283673988
 10
945.1961677053
 20
-359.236845641
 10
952.8801608048
 20
-364.9836776297
 10
960.421164296
 20
-370.9611953482
 10
967.8091161934
 20
-377.161422975
 10
975.0341587288
 20
-383.5760875263
 10
982.0866515042
 20
-390.1966298943
 10
988.9571843556
 20
-397.0142162676
 10
995.6365899087
 20
-404.0197499186
 10
1002.1159558108
 20
-411.2038833409
 10
1008.3866366228
 20
-418.5570307218
 10
1014.440265355
 20
-426.0693807328
 10
1020.2687646308
 20
-433.7309096208
 10
1025.8643574646
 20
-441.5313945829
 10
1031.2195776386
 20
-449.4604274065
 10
1036.3272796652
 20
-457.5074283573
 10
1041.1806483208
 20
-465.6616602957
 10
1045.7732077398
 20
-473.9122430034
 10
1050.0988300553
 20
-482.248167701
 10
1054.1517435752
 20
-490.6583117371
 10
1057.9265404839
 20
-499.1314534291
 10
1061.4181840575
 20
-507.6562870363
 10
1064.6220153847
 20
-516.2214378455
 10
1067.5337595828
 20
-524.8154773481
 10
1070.1495315021
 20
-533.426938489
 10
1072.4658409096
 20
-542.0443309678
 10
1074.479597146
 20
-550.6561565694
 10
1076.18811325
 20
-559.250924507
 10
1077.5891095428
 20
-567.8171667536
 10
1078.6807166706
 20
-576.3434533443
 10
1079.4614780983
 20
-584.8184076271
 10
1079.9303520536
 20
-593.2307214428
 10
1080.0867129163
 20
-601.5691702138
 10
1079.9303520536
 20
-609.8226279207
 10
1079.4614780983
 20
-617.9800819479
 10
1078.6807166706
 20
-626.030647778
 10
1077.5891095428
 20
-633.9635835146
 10
1076.18811325
 20
-641.7683042159
 10
1074.479597146
 20
-649.4343960175
 10
1072.4658409096
 20
-656.9516300281
 10
1070.1495315021
 20
-664.309975978
 10
1067.5337595828
 20
-671.4996156021
 10
1064.6220153847
 20
-678.5109557408
 10
1061.4181840575
 20
-685.3346411401
 10
1057.9265404839
 20
-691.9615669345
 10
1054.1517435752
 20
-698.3828907951
 10
1050.0988300553
 20
-704.5900447286
 10
1045.7732077398
 20
-710.5747465093
 10
1041.1806483208
 20
-716.3290107301
 10
1036.3272796652
 20
-721.8451594576
 10
1031.2195776386
 20
-727.1158324764
 10
1025.8643574646
 20
-732.1339971103
 10
1020.2687646308
 20
-736.8929576061
 10
1014.440265355
 20
-741.386364067
 10
1008.3866366228
 20
-745.6082209264
 10
1002.1159558108
 20
-749.5528949467
 10
996.0079717016
 20
-753.0158840197
  0
LWPOLYLINE
  5
CB
330
1F
100
AcDbEntity
  8
0
  6
Continuous
 62
     7
370
    25
100
AcDbPolyline
 90
       93
 70
   128
 43
0.0
 10
667.6665772056
 20
-299.4304127069
 10
672.5733711753
 20
-294.8277262706
 10
678.4286753715
 20
-289.7862308886
 10
684.5167091102
 20
-285.0078139325
 10
690.8302171666
 20
-280.4981699321
 10
697.3616756138
 20
-276.2626731153
 10
704.1033007894
 20
-272.3063710037
 10
711.0470585713
 20
-268.6339783974
 10
718.184673952
 20
-265.249871756
 10
725.5076409005
 20
-262.1580839832
 10
733.0072324986
 20
-259.3622996212
 10
740.6745113413
 20
-256.8658504588
 10
748.5003401875
 20
-254.6717115618
 10
756.4753928491
 20
-252.782497727
 10
764.5901653051
 20
-251.2004603661
 10
772.8349870279
 20
-249.927484823
 10
781.2000325075
 20
-248.9650881267
 10
789.6753329612
 20
-248.3144171835
 10
798.2507882133
 20
-247.9762474104
 10
806.9161787317
 20
-247.9509818105
 10
815.6611778067
 20
-248.2386504934
 10
824.4753638577
 20
-248.8389106389
 10
833.3482328527
 20
-249.7510469057
 10
842.2692108259
 20
-250.9739722836
 10
851.2276664793
 20
-252.5062293895
 10
860.212923852
 20
-254.3459922035
 10
869.214275043
 20
-256.4910682456
 10
878.220992972
 20
-258.9389011881
 10
887.2223441631
 20
-261.6865739022
 10
896.2076015358
 20
-264.7308119344
 10
905.1660571892
 20
-268.0679874088
 10
914.0870351624
 20
-271.6941233502
 10
922.9599041574
 20
-275.6048984239
 10
931.7740902084
 20
-279.7956520855
 10
940.5190892834
 20
-284.2613901344
 10
949.1844798018
 20
-288.9967906663
 10
957.7599350539
 20
-293.996210415
 10
966.2352355076
 20
-299.2536914773
 10
974.6002809872
 20
-304.7629684139
 10
982.84510271
 20
-310.5174757151
 10
990.959875166
 20
-316.510355626
 10
998.9349278276
 20
-322.7344663183
 10
1006.7607566738
 20
-329.1823904017
 10
1014.4280355165
 20
-335.8464437631
 10
1021.9276271146
 20
-342.7186847242
 10
1029.2505940631
 20
-349.7909235057
 10
1036.3882094438
 20
-357.0547319869
 10
1043.3319672257
 20
-364.50145375
 10
1050.0735924013
 20
-372.122214396
 10
1056.6050508485
 20
-379.9079321202
 10
1062.9185589049
 20
-387.8493285359
 10
1069.0065926436
 20
-395.9369397308
 10
1074.8618968398
 20
-404.1611275458
 10
1080.4774936168
 20
-412.5120910609
 10
1085.8466907617
 20
-420.9798782751
 10
1090.9630897009
 20
-429.5543979662
 10
1095.8205931251
 20
-438.2254317172
 10
1100.4134122557
 20
-446.9826460933
 10
1104.7360737432
 20
-455.8156049565
 10
1108.7834261904
 20
-464.713781903
 10
1112.5506462907
 20
-473.666572807
 10
1116.0332445769
 20
-482.6633084585
 10
1119.2270707708
 20
-491.6932672775
 10
1122.1283187292
 20
-500.7456880916
 10
1124.7335309803
 20
-509.8097829596
 10
1127.0396028432
 20
-518.8747500286
 10
1129.0437861287
 20
-527.9297864059
 10
1130.7436924135
 20
-536.9641010336
 10
1132.1372958873
 20
-545.9669275481
 10
1133.2229357665
 20
-554.927537111
 10
1133.9993182734
 20
-563.8352511946
 10
1134.4655181785
 20
-572.6794543076
 10
1134.6209799024
 20
-581.4496066461
 10
1134.4655181785
 20
-590.1352566537
 10
1133.9993182734
 20
-598.7260534773
 10
1133.2229357665
 20
-607.2117593018
 10
1132.1372958873
 20
-615.5822615513
 10
1130.7436924135
 20
-623.8275849401
 10
1129.0437861287
 20
-631.9379033605
 10
1127.0396028432
 20
-639.9035515927
 10
1124.7335309803
 20
-647.7150368233
 10
1122.1283187292
 20
-655.3630499576
 10
1119.2270707708
 20
-662.8384767139
 10
1116.0332445769
 20
-670.1324084848
 10
1112.5506462907
 20
-677.236152954
 10
1108.7834261904
 20
-684.141244455
 10
1104.7360737432
 20
-690.8394540597
 10
1100.4134122557
 20
-697.3227993852
 10
1095.8205931251
 20
-703.5835541063
 10
1090.9630897009
 20
-709.6142571633
 10
1085.8466907617
 20
-715.4077216534
 10
1080.4774936168
 20
-720.9570433955
 10
1079.7686908095
 20
-721.6529227218
  0
LWPOLYLINE
  5
CC
330
1F
100
AcDbEntity
  8
0
  6
Continuous
 62
     7
370
    25
100
AcDbPolyline
 90
      126
 70
   128
 43
0.0
 10
586.1358616535
 20
-441.8884266119
 10
586.2106089128
 20
-441.2021165352
 10
587.296248792
 20
-432.8316142856
 10
588.6898522658
 20
-424.5862908968
 10
590.3897585506
 20
-416.4759724764
 10
592.3939418361
 20
-408.5103242442
 10
594.700013699
 20
-400.6988390136
 10
597.30522595
 20
-393.0508258793
 10
600.2064739085
 20
-385.5753991231
 10
603.4003001023
 20
-378.2814673521
 10
606.8828983885
 20
-371.1777228829
 10
610.6501184889
 20
-364.272631382
 10
614.6974709361
 20
-357.5744217772
 10
619.0201324236
 20
-351.0910764518
 10
623.6129515542
 20
-344.8303217307
 10
628.4704549784
 20
-338.7996186736
 10
633.5868539176
 20
-333.0061541835
 10
638.9560510625
 20
-327.4568324414
 10
644.5716478395
 20
-322.1582666789
 10
650.4269520356
 20
-317.1167712969
 10
656.5149857744
 20
-312.3383543408
 10
662.8284938308
 20
-307.8287103404
 10
669.359952278
 20
-303.5932135236
 10
676.1015774536
 20
-299.636911412
 10
683.0453352355
 20
-295.9645188057
 10
690.1829506162
 20
-292.5804121642
 10
697.5059175647
 20
-289.4886243915
 10
705.0055091628
 20
-286.6928400294
 10
712.6727880055
 20
-284.1963908671
 10
720.4986168517
 20
-282.0022519701
 10
728.4736695133
 20
-280.1130381352
 10
736.5884419693
 20
-278.5310007744
 10
744.8332636921
 20
-277.2580252313
 10
753.1983091717
 20
-276.295628535
 10
761.6736096254
 20
-275.6449575918
 10
770.2490648775
 20
-275.3067878186
 10
778.9144553959
 20
-275.2815222188
 10
787.6594544709
 20
-275.5691909017
 10
796.4736405219
 20
-276.1694510472
 10
805.3465095169
 20
-277.0815873139
 10
814.2674874901
 20
-278.3045126919
 10
823.2259431435
 20
-279.8367697977
 10
832.2112005162
 20
-281.6765326118
 10
841.2125517072
 20
-283.8216086539
 10
850.2192696362
 20
-286.2694415963
 10
859.2206208273
 20
-289.0171143104
 10
868.2058782
 20
-292.0613523427
 10
877.1643338534
 20
-295.398527817
 10
886.0853118266
 20
-299.0246637585
 10
894.9581808216
 20
-302.9354388322
 10
903.7723668726
 20
-307.1261924937
 10
912.5173659476
 20
-311.5919305427
 10
921.182756466
 20
-316.3273310746
 10
929.7582117181
 20
-321.3267508232
 10
938.2335121718
 20
-326.5842318856
 10
946.5985576514
 20
-332.0935088221
 10
954.8433793742
 20
-337.8480161234
 10
962.9581518302
 20
-343.8408960343
 10
970.9332044918
 20
-350.0650067266
 10
978.759033338
 20
-356.5129308099
 10
986.4263121807
 20
-363.1769841713
 10
993.9259037788
 20
-370.0492251325
 10
1001.2488707273
 20
-377.121463914
 10
1008.386486108
 20
-384.3852723952
 10
1015.3302438898
 20
-391.8319941583
 10
1022.0718690655
 20
-399.4527548042
 10
1028.6033275127
 20
-407.2384725285
 10
1034.9168355691
 20
-415.1798689442
 10
1041.0048693078
 20
-423.2674801391
 10
1046.860173504
 20
-431.4916679541
 10
1052.475770281
 20
-439.8426314692
 10
1057.8449674259
 20
-448.3104186833
 10
1062.9613663651
 20
-456.8849383745
 10
1067.8188697893
 20
-465.5559721255
 10
1072.4116889199
 20
-474.3131865015
 10
1076.7343504074
 20
-483.1461453648
 10
1080.7817028546
 20
-492.0443223112
 10
1084.5489229549
 20
-500.9971132153
 10
1088.0315212411
 20
-509.9938488667
 10
1091.225347435
 20
-519.0238076858
 10
1094.1265953934
 20
-528.0762284998
 10
1096.7318076445
 20
-537.1403233679
 10
1099.0378795074
 20
-546.2052904369
 10
1101.0420627929
 20
-555.2603268142
 10
1102.7419690777
 20
-564.2946414418
 10
1104.1355725515
 20
-573.2974679564
 10
1105.2212124307
 20
-582.2580775193
 10
1105.9975949376
 20
-591.1657916029
 10
1106.4637948427
 20
-600.0099947159
 10
1106.6192565666
 20
-608.7801470544
 10
1106.4637948427
 20
-617.465797062
 10
1105.9975949376
 20
-626.0565938855
 10
1105.2212124307
 20
-634.54229971
 10
1104.1355725515
 20
-642.9128019596
 10
1102.7419690777
 20
-651.1581253484
 10
1101.0420627929
 20
-659.2684437688
 10
1099.0378795074
 20
-667.234092001
 10
1096.7318076445
 20
-675.0455772316
 10
1094.1265953934
 20
-682.6935903659
 10
1091.225347435
 20
-690.1690171221
 10
1088.0315212411
 20
-697.462948893
 10
1084.5489229549
 20
-704.5666933623
 10
1080.7817028546
 20
-711.4717848632
 10
1076.7343504074
 20
-718.1699944679
 10
1072.4116889199
 20
-724.6533397934
 10
1067.8188697893
 20
-730.9140945145
 10
1062.9613663651
 20
-736.9447975716
 10
1057.8449674259
 20
-742.7382620617
 10
1052.475770281
 20
-748.2875838038
 10
1046.860173504
 20
-753.5861495663
 10
1041.0048693078
 20
-758.6276449483
 10
1034.9168355691
 20
-763.4060619044
 10
1028.6033275127
 20
-767.9157059048
 10
1022.0718690655
 20
-772.1512027216
 10
1015.3302438898
 20
-776.1075048332
 10
1008.386486108
 20
-779.7798974395
 10
1001.2488707273
 20
-783.164004081
 10
993.9259037788
 20
-786.2557918537
 10
986.4263121807
 20
-789.0515762157
 10
978.759033338
 20
-791.5480253781
 10
970.9332044918
 20
-793.7421642751
 10
962.9581518302
 20
-795.63137811
 10
954.8433793742
 20
-797.2134154708
 10
946.5985576514
 20
-798.4863910139
 10
938.2335121718
 20
-799.4487877102
 10
935.3749409788
 20
-799.7041130651
  0
LWPOLYLINE
  5
CD
330
1F
100
AcDbEntity
  8
0
  6
Continuous
 62
     7
370
    25
100
AcDbPolyline
 90
       41
 70
   128
 43
0.0
 10
889.3851404817
 20
-725.9748498016
 10
886.1137113248
 20
-725.2898318648
 10
877.8516337516
 20
-723.347609227
 10
869.5836342635
 20
-721.100544128
 10
861.3215566903
 20
-718.5518554667
 10
853.0772363784
 20
-715.7051942152
 10
844.8624832374
 20
-712.5646381882
 10
836.6890648218
 20
-709.1346862021
 10
828.5686894749
 20
-705.4202516299
 10
820.5129895562
 20
-701.4266553635
 10
812.5335047781
 20
-697.159618191
 10
804.6416656758
 20
-692.6252526021
 10
796.8487772327
 20
-687.8300540317
 10
789.1660026865
 20
-682.7808915558
 10
781.6043475377
 20
-677.4849980508
 10
774.1746437845
 20
-671.9499598332
 10
766.8875344059
 20
-666.1837057919
 10
759.753458116
 20
-660.1944960303
 10
752.7826344102
 20
-653.9909100338
 10
745.9850489264
 20
-647.5818343794
 10
739.3704391404
 20
-640.9764500063
 10
732.9482804169
 20
-634.184219064
 10
726.7277724364
 20
-627.2148713579
 10
720.7178260167
 20
-620.0783904115
 10
714.9270503481
 20
-612.7849991649
 10
709.3637406611
 20
-605.3451453309
 10
704.0358663432
 20
-597.7694864285
 10
698.9510595229
 20
-590.0688745159
 10
694.1166041371
 20
-582.2543406457
 10
689.5394254965
 20
-574.3370790623
 10
685.2260803656
 20
-566.3284311666
 10
681.1827475695
 20
-558.2398692697
 10
677.4152191436
 20
-550.0829801585
 10
673.9288920361
 20
-541.8694484982
 10
670.728760377
 20
-533.6110400936
 10
667.8194083241
 20
-525.3195850353
 10
665.2050034961
 20
-517.0069607528
 10
662.8892910027
 20
-508.6850750003
 10
660.8755880799
 20
-500.365848799
 10
659.1667793376
 20
-492.0611993602
 10
658.7278786632
 20
-489.6531110304
  0
ENDSEC
  0
SECTION
  2
OBJECTS
  0
DICTIONARY
  5
C
330
0
100
AcDbDictionary
281
     1
  3
ACAD_GROUP
350
D
  3
ACAD_LAYOUT
350
1A
  3
ACAD_MLINESTYLE
350
17
  3
ACAD_PLOTSETTINGS
350
19
  3
ACAD_PLOTSTYLENAME
350
E
  3
ACAD_SCALELIST
350
47
  0
DICTIONARY
  5
D
102
{ACAD_REACTORS
330
C
102
}
330
C
100
AcDbDictionary
281
     1
  0
DICTIONARY
  5
1A
102
{ACAD_REACTORS
330
C
102
}
330
C
100
AcDbDictionary
281
     1
  3
Layout1
350
1E
  3
Layout2
350
26
  3
Model
350
22
  0
DICTIONARY
  5
17
102
{ACAD_REACTORS
330
C
102
}
330
C
100
AcDbDictionary
281
     1
  3
Standard
350
18
  0
DICTIONARY
  5
19
102
{ACAD_REACTORS
330
C
102
}
330
C
100
AcDbDictionary
281
     1
  0
ACDBDICTIONARYWDFLT
  5
E
102
{ACAD_REACTORS
330
C
102
}
330
C
100
AcDbDictionary
281
     1
  3
Normal
350
F
100
AcDbDictionaryWithDefault
340
F
  0
DICTIONARY
  5
47
102
{ACAD_REACTORS
330
C
102
}
330
C
100
AcDbDictionary
281
     1
  3
A0
350
48
  3
A1
350
49
  3
A2
350
4A
  3
A3
350
4B
  3
A4
350
4C
  3
A5
350
4D
  3
A6
350
4E
  3
A7
350
4F
  3
A8
350
50
  3
A9
350
51
  3
B0
350
52
  3
B1
350
53
  3
B2
350
54
  3
B3
350
55
  3
B4
350
56
  3
B5
350
57
  3
B6
350
58
  3
B7
350
59
  3
B8
350
5A
  3
B9
350
5B
  3
C0
350
5C
  3
C1
350
5D
  3
C2
350
5E
  3
C3
350
5F
  3
C4
350
60
  3
C5
350
61
  3
C6
350
62
  3
C7
350
63
  3
C8
350
64
  3
C9
350
65
  3
D0
350
66
  3
D1
350
67
  3
D2
350
68
  0
LAYOUT
  5
1E
102
{ACAD_REACTORS
330
1A
102
}
330
1A
100
AcDbPlotSettings
  1

  2
none_device
  4

  6

 40
0.0
 41
0.0
 42
0.0
 43
0.0
 44
0.0
 45
0.0
 46
0.0
 47
0.0
 48
0.0
 49
0.0
140
0.0
141
0.0
142
1.0
143
1.0
 70
   688
 72
     1
 73
     0
 74
     5
  7

 75
    16
147
1.0
148
0.0
149
0.0
100
AcDbLayout
  1
Layout1
 70
     1
 71
     1
 10
0.0
 20
0.0
 11
420.0
 21
297.0
 12
0.0
 22
0.0
 32
0.0
 14
1.0000000000E+20
 24
1.0000000000E+20
 34
1.0000000000E+20
 15
-1.0000000000E+20
 25
-1.0000000000E+20
 35
-1.0000000000E+20
146
0.0
 13
0.0
 23
0.0
 33
0.0
 16
1.0
 26
0.0
 36
0.0
 17
0.0
 27
1.0
 37
0.0
 76
     0
330
1B
  0
LAYOUT
  5
26
102
{ACAD_REACTORS
330
1A
102
}
330
1A
100
AcDbPlotSettings
  1

  2
none_device
  4

  6

 40
0.0
 41
0.0
 42
0.0
 43
0.0
 44
0.0
 45
0.0
 46
0.0
 47
0.0
 48
0.0
 49
0.0
140
0.0
141
0.0
142
1.0
143
1.0
 70
   688
 72
     1
 73
     0
 74
     5
  7

 75
    16
147
1.0
148
0.0
149
0.0
100
AcDbLayout
  1
Layout2
 70
     1
 71
     2
 10
0.0
 20
0.0
 11
0.0
 21
0.0
 12
0.0
 22
0.0
 32
0.0
 14
0.0
 24
0.0
 34
0.0
 15
0.0
 25
0.0
 35
0.0
146
0.0
 13
0.0
 23
0.0
 33
0.0
 16
1.0
 26
0.0
 36
0.0
 17
0.0
 27
1.0
 37
0.0
 76
     0
330
23
  0
LAYOUT
  5
22
102
{ACAD_REACTORS
330
1A
102
}
330
1A
100
AcDbPlotSettings
  1

  2
none_device
  4
Letter_(8.50_x_11.00_Inches)
  6

 40
6.35
 41
6.35
 42
6.35000508
 43
6.35000508
 44
215.9
 45
279.4
 46
0.0
 47
0.0
 48
0.0
 49
0.0
140
0.0
141
0.0
142
1.0
143
1.0
 70
  1712
 72
     1
 73
     0
 74
     0
  7

 75
     0
147
1.0
148
0.0
149
0.0
100
AcDbLayout
  1
Model
 70
     1
 71
     0
 10
0.0
 20
0.0
 11
279.4
 21
215.9
 12
0.0
 22
0.0
 32
0.0
 14
0.0
 24
0.0
 34
0.0
 15
279.4
 25
215.9
 35
0.0
146
0.0
 13
0.0
 23
0.0
 33
0.0
 16
1.0
 26
0.0
 36
0.0
 17
0.0
 27
1.0
 37
0.0
 76
     0
330
1F
331
29
  0
MLINESTYLE
  5
18
102
{ACAD_REACTORS
330
17
102
}
330
17
100
AcDbMlineStyle
  2
Standard
 70
     0
  3

 62
   256
 51
90.0
 52
90.0
 71
     2
 49
0.5
 62
   256
  6
BYLAYER
 49
-0.5
 62
   256
  6
BYLAYER
  0
ACDBPLACEHOLDER
  5
F
102
{ACAD_REACTORS
330
E
102
}
330
E
  0
SCALE
  5
48
102
{ACAD_REACTORS
330
47
102
}
330
47
100
AcDbScale
 70
     0
300
1:1
140
1.0
141
1.0
290
     1
  0
SCALE
  5
49
102
{ACAD_REACTORS
330
47
102
}
330
47
100
AcDbScale
 70
     0
300
1:2
140
1.0
141
2.0
290
     0
  0
SCALE
  5
4A
102
{ACAD_REACTORS
330
47
102
}
330
47
100
AcDbScale
 70
     0
300
1:4
140
1.0
141
4.0
290
     0
  0
SCALE
  5
4B
102
{ACAD_REACTORS
330
47
102
}
330
47
100
AcDbScale
 70
     0
300
1:5
140
1.0
141
5.0
290
     0
  0
SCALE
  5
4C
102
{ACAD_REACTORS
330
47
102
}
330
47
100
AcDbScale
 70
     0
300
1:8
140
1.0
141
8.0
290
     0
  0
SCALE
  5
4D
102
{ACAD_REACTORS
330
47
102
}
330
47
100
AcDbScale
 70
     0
300
1:10
140
1.0
141
10.0
290
     0
  0
SCALE
  5
4E
102
{ACAD_REACTORS
330
47
102
}
330
47
100
AcDbScale
 70
     0
300
1:16
140
1.0
141
16.0
290
     0
  0
SCALE
  5
4F
102
{ACAD_REACTORS
330
47
102
}
330
47
100
AcDbScale
 70
     0
300
1:20
140
1.0
141
20.0
290
     0
  0
SCALE
  5
50
102
{ACAD_REACTORS
330
47
102
}
330
47
100
AcDbScale
 70
     0
300
1:30
140
1.0
141
30.0
290
     0
  0
SCALE
  5
51
102
{ACAD_REACTORS
330
47
102
}
330
47
100
AcDbScale
 70
     0
300
1:40
140
1.0
141
40.0
290
     0
  0
SCALE
  5
52
102
{ACAD_REACTORS
330
47
102
}
330
47
100
AcDbScale
 70
     0
300
1:50
140
1.0
141
50.0
290
     0
  0
SCALE
  5
53
102
{ACAD_REACTORS
330
47
102
}
330
47
100
AcDbScale
 70
     0
300
1:100
140
1.0
141
100.0
290
     0
  0
SCALE
  5
54
102
{ACAD_REACTORS
330
47
102
}
330
47
100
AcDbScale
 70
     0
300
2:1
140
2.0
141
1.0
290
     0
  0
SCALE
  5
55
102
{ACAD_REACTORS
330
47
102
}
330
47
100
AcDbScale
 70
     0
300
4:1
140
4.0
141
1.0
290
     0
  0
SCALE
  5
56
102
{ACAD_REACTORS
330
47
102
}
330
47
100
AcDbScale
 70
     0
300
8:1
140
8.0
141
1.0
290
     0
  0
SCALE
  5
57
102
{ACAD_REACTORS
330
47
102
}
330
47
100
AcDbScale
 70
     0
300
10:1
140
10.0
141
1.0
290
     0
  0
SCALE
  5
58
102
{ACAD_REACTORS
330
47
102
}
330
47
100
AcDbScale
 70
     0
300
100:1
140
100.0
141
1.0
290
     0
  0
SCALE
  5
59
102
{ACAD_REACTORS
330
47
102
}
330
47
100
AcDbScale
 70
     0
300
1/128" = 1'-0"
140
0.0078125
141
12.0
290
     0
  0
SCALE
  5
5A
102
{ACAD_REACTORS
330
47
102
}
330
47
100
AcDbScale
 70
     0
300
1/64" = 1'-0"
140
0.015625
141
12.0
290
     0
  0
SCALE
  5
5B
102
{ACAD_REACTORS
330
47
102
}
330
47
100
AcDbScale
 70
     0
300
1/32" = 1'-0"
140
0.03125
141
12.0
290
     0
  0
SCALE
  5
5C
102
{ACAD_REACTORS
330
47
102
}
330
47
100
AcDbScale
 70
     0
300
1/16" = 1'-0"
140
0.0625
141
12.0
290
     0
  0
SCALE
  5
5D
102
{ACAD_REACTORS
330
47
102
}
330
47
100
AcDbScale
 70
     0
300
3/32" = 1'-0"
140
0.09375
141
12.0
290
     0
  0
SCALE
  5
5E
102
{ACAD_REACTORS
330
47
102
}
330
47
100
AcDbScale
 70
     0
300
1/8" = 1'-0"
140
0.125
141
12.0
290
     0
  0
SCALE
  5
5F
102
{ACAD_REACTORS
330
47
102
}
330
47
100
AcDbScale
 70
     0
300
3/16" = 1'-0"
140
0.1875
141
12.0
290
     0
  0
SCALE
  5
60
102
{ACAD_REACTORS
330
47
102
}
330
47
100
AcDbScale
 70
     0
300
1/4" = 1'-0"
140
0.25
141
12.0
290
     0
  0
SCALE
  5
61
102
{ACAD_REACTORS
330
47
102
}
330
47
100
AcDbScale
 70
     0
300
3/8" = 1'-0"
140
0.375
141
12.0
290
     0
  0
SCALE
  5
62
102
{ACAD_REACTORS
330
47
102
}
330
47
100
AcDbScale
 70
     0
300
1/2" = 1'-0"
140
0.5
141
12.0
290
     0
  0
SCALE
  5
63
102
{ACAD_REACTORS
330
47
102
}
330
47
100
AcDbScale
 70
     0
300
3/4" = 1'-0"
140
0.75
141
12.0
290
     0
  0
SCALE
  5
64
102
{ACAD_REACTORS
330
47
102
}
330
47
100
AcDbScale
 70
     0
300
1" = 1'-0"
140
1.0
141
12.0
290
     0
  0
SCALE
  5
65
102
{ACAD_REACTORS
330
47
102
}
330
47
100
AcDbScale
 70
     0
300
1-1/2" = 1'-0"
140
1.5
141
12.0
290
     0
  0
SCALE
  5
66
102
{ACAD_REACTORS
330
47
102
}
330
47
100
AcDbScale
 70
     0
300
3" = 1'-0"
140
3.0
141
12.0
290
     0
  0
SCALE
  5
67
102
{ACAD_REACTORS
330
47
102
}
330
47
100
AcDbScale
 70
     0
300
6" = 1'-0"
140
6.0
141
12.0
290
     0
  0
SCALE
  5
68
102
{ACAD_REACTORS
330
47
102
}
330
47
100
AcDbScale
 70
     0
300
1'-0" = 1'-0"
140
12.0
141
12.0
290
     0
  0
ENDSEC
  0
EOF
